Comment jouer Another One Bites The Dust à la basse

Vous pouvez recevoir dès aujourd'hui le Pack Débutant gratuitement : je vous l'envoie sur simple demande 🙂

 

Pour commencer mon défi je vais vous expliquer comment jouer Another One Bites The Dust 

Le saviez-vous ?

John Deacon, le bassiste du groupe, a composé « Another one bites the dust » en 1980. C’est une des raisons qui me font commencer mon défi par ce morceau  Hé oui ! Les bassistes aussi peuvent créer des super-hits interplanétaires même s’ils ne font pas les marioles à tripoter le micro sur le devant de la scène 

Ce morceau mythique de Queen est sans doute l’un des plus joués par les débutants à la basse.
C’est naturel : il présente à la fois une simplicité mélodique et un jeu rythmique tout en puissance.

En effet, à la mélodie on a – en tout et pour tout – 10 notes utilisées pour l’intégralité du morceau.
À part quelques lignes de basses chez U2 ou Kool & The Gang, on a rarement vu plus simple 

Unique difficulté de ce côté-là : la tonalité.

Dans la version album, le morceau est joué en Fa. Si on laisse la basse accordée par défaut en Mi-La-Ré-Sol ça demande plus de force dans les doigts car aucune corde vide n’est utilisée.

statue commémorative freddie mercury

La statue commémorative de Freddie Mercury, à Montreux en Suisse

 

Vous avez donc trois solutions :

  • monter toutes les cordes d’un demi-ton et accorder la basse en Fa (ça donne Fa – Si bémol – Mi bémol – La bémol),
  • descendre toutes les cordes d’un demi-ton et accorder la basse en Mi bémol (ça donne Mi bémol – La bémol – Do dièse – Fa dièse),
  • laisser votre basse en Mi-La-Ré-Sol et vous la jouez « guerrier » avec la tablature ci-dessous

Heureusement sur la version live, le groupe joue le morceau en Mi, ce qui évite d’avoir à ré-accorder votre basse pour le jouer facilement.

 

Tablatures en Mi et en Fa

 

Voici la ligne de basse en Mi (version live) si votre basse est accordée par défaut en Mi-La-Ré-Sol,
… qui est la même que la ligne de basse en Fa (version album) si vous accordez votre basse en Fa-Sib-Mib-Lab 🙂

G -----------------------------------------------------------------------
D ----------------------------------------5------------------5-----------
A 0-------------0---------------0---33-345----33-345---33-345---00-012---
E -30-0-0--00030----0-0-0--00030-----------3---------3--------3--------3-

G -----------------------------------------------------------------------
D -----------------------------------------------------------------------
A ------------0---------------0---------------0-------2100-0-------------
E 0-0-0--00030----0-0-0--00030----0-0-0--00030----2--2-------2----3-0-0-0...

Et voici les 2 versions alternatives pour jouer Another One Bites The Dust dans la version album, en Fa.

Si vous êtes accordé en Mi-La-Ré-Sol :

G -----------------------------------------------------------------------
D ----------------------------------------6------------------6-----------
A 1-------------1---------------1---44-456----44-456---44-456---11-123---
E -41-1-1--11141----1-1-1--11141-----------4---------4--------4--------4-

G -----------------------------------------------------------------------
D -----------------------------------------------------------------------
A ------------1---------------1---------------1-------3211-1-------------
E 1-1-1--11141----1-1-1--11141----1-1-1--11141----3--3-------3----4-1-1-1...

Si vous êtes accordé en Mib-Lab-Do#-Fa# :

G ----------------------------------------2------------------2-----------
D ----------------------------------00-012----00-012---00-012------------
A 20----------0-2-------------0-2----------0---------0--------0-22-234-0-
E --2-2-2--222-2----2-2-2--222-2-----------------------------------------

G -----------------------------------------------------------------------
D -----------------------------------------------------------------------
A ----------0-2-------------0-2-------------0-2-------4322-2------0------
E 2-2-2--222-2----2-2-2--222-2----2-2-2--222-2----4--4-------4------2-2-2...

 

Pour aller plus loin

 

Pour vous expliquer comment déconstruire ce morceau, je vais partir de la version live.

En jouant la ligne de basse, vous trouvez que la grille d’accords est composée ainsi :

Première partie : Mim / Mim/Lam / Mim / Mim/Lam / Do / Sol / Do / Sol / Do / Sol / La mineur / Si
Deuxième partie : Mim / Mim/Lam / Mim / Mim/Lam / Fa dièse / La / Fa dièse / Si

Voici les notes principales d’une gamme de Mi mineur et de La mineur avec la tablature du thème qui en découle :

Mi mineur et La mineur à la basse

Mim et Lam avec en rouge les notes utilisées dans le morceau

 

 

===>
 
G ---------------
D ---------------
A 0-------------0
E -30-0-0--00030-

À partir de ces deux schémas, vous remarquez aisément que les notes sont quasiment les mêmes dans les deux cas exceptées le Si (pour le Mim) remplacé par le Do (pour le Lam).
On en déduit facilement comment est construite la ligne de basse et quelles sont les notes utilisables pour l’enrichir ou pour improviser dessus (à partir des notes bleues restantes).

Il vous suffit de faire la même chose pour le riff suivant :

Do et Sol sur la basse électrique

Do et Sol avec en rouge les notes utilisées dans le morceau

 

 

===>
 
G -------------------------------------
D ------5------------------5-----------
A 33-345----33-345---33-345---00-012---
E -------3---------3--------3--------3-

 

Cette fois la liaison est faite entre les deux accords grâce à cette note rose pâle qui lie le Do au Sol.
Vous pouvez déduire de la même façon les dernières notes du morceau sur le reste de la grille d’accords 

 

Un peu d’exercice

 

Pour mieux vous entraîner sur ce morceau légendaire, je vous ai enregistré la ligne de basse en Mi sur un tempo modéré.

 

Je l’ai jouée à ma manière, libre à vous d’ajouter des notes à votre guise

La grille que j’utilise est la suivante :
Mim / Mim/Lam (x4)
Do / Sol / Do / Sol / Do / Sol / La mineur / Si
Mim / Mim/Lam (x3)
Fa dièse / La / Fa dièse / Si

J’espère que ce premier morceau vous a plu 

Étant donné que ce sont mes débuts en production de vidéo et de mp3, laissez-moi vos commentaires ci-dessous pour que je puisse faire mieux les prochaines fois !

 

À bientôt pour le prochain morceau 

Entrez votre prénom et votre email pour que
je vous envoie le Pack Débutant gratuitement :

Mots-clés efficaces :

another one bites the dust bass tab, another one bites the dust bass tabs

Auteur: Johann

Partagez cet article sur

7 Commentaires

  1. Bravo ! très bien fait fait et très bien expliqué , plein de détails intéressants . juste une petite remarque si je peux me permettre ….. ca serait cool si tu pouvait ajouter deux petites choses a tes vidéos

    1 : jouer le morceau en cover au début de ta vidéo (car ensuite ca donne envie a tes auditeurs d aller plus loin et ca nous aide a travailler le morceau

    2 – décomposer le doigté

    ca aidera énormément les débutants

    en tout cas Bravo !!! je vais bookmarquer ton site

    Poster une réponse
    • Bonjour Maol,

      Un grand merci pour ton feedback, je vais en prendre compte pour les prochains morceaux.

      Ça amplifie grandement le côté challenge, c’est encore mieux ! 🙂
      (peut-être jouer une partie du morceau car la plupart du temps ça se répète ensuite, puis donner les explications…)

      Poster une réponse
  2. Hello,

    C’est simple et clair. Je trouve géniale l’idée d’analyse et de déconstruction du morceau. Après j’aurais aimé te voir la jouer intégralement sur la vidéo (c’est le principe de la cover… 😉 ). vivement la prochaine!

    Poster une réponse
    • Bonjour Seb,
      ah oui… en effet je n’avais même pas pensé au fait de la jouer en entier ! 🙂

      Il me semblait tellement intéressant de donner des outils pour que d’autres apprennent à jouer ces morceaux que j’en ai oublié le sens de « cover », tu as complètement raison.

      Difficile de donner des indications et je jouer tout le morceau dans une seule vidéo, alors je vais réfléchir à un moyen d’enregistrer des covers en plus… à ma façon 🙂

      Poster une réponse
  3. Salut.
    Merci pour cette première. C’est très bon?
    Vivement la prochaine.

    Poster une réponse
  4. Salut,
    Très intéressant , et plus tôt bien pour une première.

    Poster une réponse
    • Salut Ivan,
      Merci, je vais tenter d’améliorer le concept au fur et à mesure des épisodes 🙂

      Poster une réponse

Soumettre un commentaire

Votre adresse de messagerie ne sera pas publiée. Les champs obligatoires sont indiqués avec *

Téléchargez le Pack débutant et prenez plaisir à jouer dès aujourd'hui ! Cliquez ici
Hello. Add your message here.