Highway to Hell à la basse chez Dracula + tablatures de la version originale

Vous pouvez recevoir dès aujourd'hui le Pack Débutant gratuitement : je vous l'envoie sur simple demande 🙂

C’est avec ces grands moments que mon défi d’une cover par semaine à la basse prend une tournure imprévue.
Sachant que j’allais traverser le sud de la Roumanie en cette saison j’en ai profité pour trimbaler ma basse un peu partout. Bien sûr les questions ont fusé et les collibets ont collibé, mais j’avais ma petite idée en tête 🙂

highway to hell à la basse chez Dracula

Une autre manière d’avoir du fun avec ma basse 😛

Alors que nous redescendions par les petites routes escarpées de Transylvanie, bordées de forêts denses aux couleurs vives de l’automne, nous avons vu soudain apparaître les murs d’un petit château niché entre deux pans de montagne.
Sous le soleil le château de Bran ressemble à un grand manoir de pierre, gardien de cette passe entre les massifs montagneux. Mais, sous l’oeil des touristes venus nombreux pour Halloween, cette demeure est l’antre de Dracula, Vlad III Basarab, prince du XVe siècle qui s’était fait une réputation et un nom macabre : Țepeș, l’Empaleur.

Voilà pourquoi j’ai insisté pour emporter ma basse jusqu’ici : une occasion unique de célébrer Halloween dans cette superbe forteresse 🙂
Entre les commentaires amusés des touristes et les rondes des gardes du château, nous avons réussi ce défi et j’ai pu jouer Highway to Hell dans divers lieux du monument !
Ce que nous retiendrons de cette aventure est que ce défi à la basse apporte son lot de surprises et surtout qu’on s’est bien marrés 😉

 

 

Les tablatures

Comme vous l’avez remarqué dans la vidéo, je me suis cantonné à reprendre la ligne de basse originale, très simple et très efficace, de Cliff Williams.
Ne soyez donc pas étonnés de ne pas avoir une transcription pour tout le morceau puisque pendant la moitié du morceau, Cliff Williams ne joue pas ! 🙂
C’est ça aussi la force de la basse efficace : arriver au bon moment, comme un coup de tonnerre, avec un bon gros son qui réveille les morts 🙂

Pendant presque toute la première minute vous pouvez boire votre tisane pour les doigts peinard, et vers 00:50 vous jeter sur votre corde de Mi à vide pour le premier refrain :

 

G ----------------------------------
D ----------------------------------
A ----------------------------------
E 0---0-0-0-0-0-0-0-0-0-0-0-0-0-0-0-

G --------------------------------
D ------------------------5---4---
A 0---0---0---0---0---0----------- x2
E --------------------------------

G -----------------------------------------------
D ------------------------5---7-----------------0 (laissez sonner)
A 0---0---0---0---0---0-----------0---0---0---0--
E -----------------------------------------------

 

Là vous avez joué une vingtaine de secondes, ça vaut bien un petit break pour profiter que les autres relancent le couplet suivant et secouer vos longs cheveux devant la foule en délire 🙂
On se retrouve alors vers 1:40 pour le refrain suivant :

G ----------------------------------
D ----------------------------------
A ----------------------------------
E 0---0-0-0-0-0-0-0-0-0-0-0-0-0-0-0-

G ----------------------------------------------------------------
D ------------------------5---4---------------------------5---7---
A 0---0---0---0---0---0-----------0---0---0---0---0---0-----------
E ----------------------------------------------------------------

G ---------------------------------------------------------------
D ----------------------------------------------0----------------
A 0---0---0---0---0---------------0---0---0---0------------------
E ------------------0-2-0-3---2----------------------------------

G ------------------------------------------------------------
D 0-0-0-0-0-0-0---------------------0-0-0-0-0-0-0-0-0-0-0-0-0-
A ------------------------------------------------------------
E ------------------------------------------------------------

 

Puis le solo de guitare débarque en puissance :

G --------------------------------------------------------------0-------
D ------------------------------5---4-------------------------2-----4---
A ------0---0---0---0---0---0-----------0---0---0---0---0-0-4-----------
E 0-3-0-----------------------------------------------------------------

G -------------------------------------------------------------
D ------------------------5---7--------------------------------
A 0---0---0---0---0---0-----------0---0---0---0---0------------
E --------------------------------------------------0-2-0-3---2

 

Et enfin, le dernier refrain :

G ------------------------0-------------------------------0--2----
D ----------------------2-----4-------------------------2---------
A 0---0---0---0---0-0-4-----------0---0---0---0---0-0-4-----------
E ----------------------------------------------------------------

G -------------------------------------------------------0-------
D ----------------------------------------------0------------0---
A 0---0---0---0---0---------------0---0---0---0------------------
E ------------------0-2-0-3---2----------------------------------

G ----------------------------------------------------------------
D --------------------------------------------------------5---7---
A 0---0---0---0---0---0---0---0---0---0---0---0---0---0-----------
E ----------------------------------------------------------------

G ------------------------------------------------
D ----------------------------------------------0- (jusqu'au La final)
A 0---0---0---0---0---0-----------0---0---0---0---
E ------------------------3---2-------------------

Vous remarquez avec ces tablatures que la ligne de basse alterne quelques variations simples, si vous le jouez avec votre groupe vous pouvez très bien les alterner selon votre feeling : ça sonnera toujours impec 😉

Joyeux Halloween !

highway to hell à la basse pour halloween chez Dracula

Joyeux Halloween aux bassistes, et aux autres aussi 🙂

Je suis très heureux d’avoir pu réaliser ce trip et le partager avec vous.
Je n’aurais pas imaginé que mon défi perso m’amènerait à reprendre AC/DC dans un vieux château de Transylvanie, quel fun ! 🙂

Alors, pour Halloween et pour le reste des temps si d’aventure vous deveniez immortels, je vous souhaite bien du plaisir, à vous aussi, avec votre basse 🙂

Entrez votre prénom et votre email pour que
je vous envoie le Pack Débutant gratuitement :

Auteur: Johann

Partagez cet article sur

2 Commentaires

  1. Trop fort on voit que tu t’es bien éclaté à la faire cette vidéo !!! 🙂
    Continue !, la prochaine fois tu peux aller jouer du Hendrix à la maison blanche :))))

    Poster une réponse
    • Merci Pitilou,
      En effet ça a été le grand kif, vivement la prochaine virée avec ma fidèle 4-cordes 🙂

      Poster une réponse

Soumettre un commentaire

Votre adresse de messagerie ne sera pas publiée. Les champs obligatoires sont indiqués avec *

Téléchargez le Pack débutant et prenez plaisir à jouer dès aujourd'hui ! Cliquez ici
Hello. Add your message here.