Jouer No time this time de Police et travailler l’endurance à la basse

Vous pouvez recevoir dès aujourd'hui le Pack Débutant gratuitement : je vous l'envoie sur simple demande 🙂

 

De tous les morceaux de Police, No time this time est le premier que j’ai aimé passer en boucle, à fond, pour me secouer dans tous les sens en mimant le solo de guitare et les mini-breaks de la fin.
Forcément, quelques temps après avoir fais entrer une basse dans mes quartiers je me suis attaqué à ce monument pour m’apercevoir aux dépends de mes doigts qu’il m’était plus facile de gigoter dans tous les sens que de faire cette ligne de basse du début à la fin sans faillir 🙂
Aaah le temps des premières ampoules et des doigts ankylosés, que de beaux souvenirs !
No time this time, la cruelle prise de conscience du facteur « endurance » dans la pratique de la basse électrique.

 

 

Petites astuces pratiques pour l’endurance

J’aborde rapidement le sujet dans la vidéo : l’endurance à la basse concerne à la fois les muscles et la résistance de la peau de vos doigts.
Pour les muscles vous pouvez relaxer régulièrement votre main droite en prenant quelques secondes pour étendre au maximum vos doigts.
Si vous avez le poignet, l’avant-bras et les jointures trop crispées, étendez vos bras sur les côtés en gardant vos épaules basses, en poussant les poignets le plus loin possible tout en ramenant le bout des doigts vers vous autant que possible.
C’est un petit exercice simple très utile pour tout détendre, que vous soyez avec votre basse ou à votre bureau.
Si votre peau sensible ne résiste pas au frottement et commence à développer des ampoules, là vous avez deux écoles.
Certains disent de les laisser sans les crever… Perso je fais le contraire : je les perce, je découpe dès que possible la peau morte séchée car c’est ce qui crée l’inconfort malgré la peau « neuve » sensible qui est dessous. C’est peut-être un peu trash mais ça me permet de rejouer et de reconstruire une couche de peau rapidement.

À vous de voir 🙂

 

Les tablatures complètes

No time this time n’a pas un doigté très compliqué, la vraie difficulté est de tenir le rythme jusqu’à la fin du morceau (j’y reviens au prochain paragraphe) 🙂

Couplet

G ----------------------------------------------------------------
D --------------------------------0-0-----------------------------
A 0-0-------------0-0-----------------3-3-0-0-3-3---------2-2----- x4
E ----3-3-0-0-3-3-----3-3-0-0-3-3-----------------3-3-3-3-----3-3-

(L’intro du morceau c’est simplement 2 fois la ligne du couplet)

Refrain : première partie

G ----------------------------------------------------------------
D ----------------------------------------------------------------
A ----------------------------------------------------------------
E 1-------1---1-------------------1-------1---1-------------------

G ----------------------------------------------------------------
D ----------------------------------------------------------------
A ----------------------------------------------------------------
E 3-------3---3-------------------3-------3---3-------------------

G ----------------------------------------------------------------
D ----------------------------------------------------------------
A ----------------------------------------------------------------
E 0-------0---0-------------------0-------0---0-------------------

 

Attention, dans cette partie du refrain vous jouez légèrement à contre-temps : dans chaque groupe de 3 notes, la première est sur le beat 1, et les deux suivantes sur le beat 3 et 4 🙂

Ensuite la seconde partie du refrain est constitué de 2 répétition du couplet :

G ----------------------------------------------------------------
D --------------------------------0-0-----------------------------
A 0-0-------------0-0-----------------3-3-0-0-3-3---------2-2----- x2
E ----3-3-0-0-3-3-----3-3-0-0-3-3-----------------3-3-3-3-----3-3-

 

À la fin du morceau vous enchaînez sans transition du dernier refrain à un riff sur le même tempo : c’est la dernière ligne droite avec de petites pauses pour les breaks de batterie bien efficaces 🙂
En groupe, répétez ce passage autant que le batteur tient assis ! 😉

 

G --------------------------------0-0-------------0-0-------------
D 3-3-0-0-----0-0-3-3-0-0-----0-0-----2-2-0-0-2-2-----2-2-0-0-2-2-
A --------3-3-------------3-3-------------------------------------
E ----------------------------------------------------------------

G 0-0-------------0-0-------------2-------------------------------
D ----2-2-0-0-2-2-----2-2-0-0-2-2---------------------------------
A ----------------------------------------------------------------
E ----------------------------------------------------------------

 

Exercice pour approche en douceur

Pour aborder ce morceau dans la zenitude, je vous propose de commencer par jouer une note sur deux.
Vous progresserez plus rapidement en gardant le tempo du morceau qu’en le jouant plus lentement car vous apprendrez ainsi à placer vos notes à l’oreille sur la batterie.

Voici la ligne de basse jouée de cette façon pour vous permettre de mieux la prendre en main.

 


Ensuite, petit à petit ajoutez de la rapidité et des notes pour obtenir le rythme soutenu final 🙂

 

Un dernier conseil pour tenir le coup jusqu’au bout du morceau : détendez bien votre bras droit.
Diminuez la tension et la force que vous mettez dans votre poignet, votre main et vos doigts, et augmentez votre concentration sur le mouvement et la précision de l’index et du majeur de la main droite.

 

Contrairement à ce que dit la chanson : prenez votre temps, respirez et profitez à fond de ce morceau puissant 🙂

 

Entrez votre prénom et votre email pour que
je vous envoie le Pack Débutant gratuitement :

Mots-clés efficaces :

morceaux de basse ben garper

Auteur: Johann

Partagez cet article sur

1 Commentaire

  1. bonjour SuPer; !! voilà sa g’m je suis content j’ai trouvé pr apprendre g suis tes programmes avec passion …

    Poster une réponse

Soumettre un commentaire

Votre adresse de messagerie ne sera pas publiée. Les champs obligatoires sont indiqués avec *

Téléchargez le Pack débutant et prenez plaisir à jouer dès aujourd'hui ! Cliquez ici
Hello. Add your message here.