Comment jouer Alone de Ben Harper à la basse

Vous pouvez recevoir dès aujourd'hui le Pack Débutant gratuitement : je vous l'envoie sur simple demande 🙂

 

Tout d’abord un grand merci à Poncé pour avoir laissé son commentaire à propos de ce morceau : Alone de Ben Harper 
Je l’ai découvert à l’occasion de mon défi et je l’ai trouvé magnifique !
Ben Harper est un génie – on le savait déjà mais un petit rappel ne fait pas de mal 

Je n’avais pas imaginé que ce morceau serait, à l’origine, uniquement joué par Ben Harper à la guitare… mais en y réfléchissant 2 secondes, ce n’est pas tellement surprenant de la part de cet artiste 🙂

Pas de panique, ça passe tout aussi bien à la basse… d’ailleurs, Ben Harper l’aurait certainement joué lui-même à la basse s’il n’avait pas eu d’abord une guitare sous la main ce jour-là 

Alone de Ben Haper à la basse

La rythmique

 

Comme souvent chez Ben Harper, la rythmique enrichit le morceau d’une belle façon.
C’est l’occasion pour vous de suivre des mesures en 6/8, c’est-à-dire comprenant chacune 2 temps – ou 2 noires – décomposés chacun en 3 parties égales – soit 3 croches.

En bref, vous jouerez 6 croches par mesure.

Pour commencer simple je vous propose de ne jouer que ces 6 croches, voire moins, pour faire votre ligne de basse.
Je n’insiste pas sur les doubles-croches, libre à vous d’en rajouter, comme le fait l’artiste, quand bon vous chante 

 

Les tablatures

 

Je vois deux approches pour jouer ce morceau sur 4 cordes.
La première – la plus simple – est d’utiliser au maximum la corde de Mi à vide et de jouer au maximum dans les graves.
À l’oreille c’est ce qui semble être une solution proche de celle utilisée par Ben Harper avec sa guitare, mais à la basse ça risque d’être un peu sourd selon vos réglages de graves de votre ampli.

Voici mes tablatures (à la croche) pour cette première version :
Intro et couplet

G --14-14---12-12---11-11---12-12---0-0---0-0-------------||
D ----------------------------------------------4-4---4-4-||
A --------------------------------3-----3-----2-----2-----|| x4
E 0-------0-------0-------0-------------------------------||

Refrain

G --0-0---0-0---------------0-0---0-0-------------|
D --------------4-4---4-4---------------4-4---4-4-|
A 3-----3-----2-----2-----3-----3-----2-----2-----|
E ------------------------------------------------|
G -------0-0-------------||
D -2-2---------2-2---0-0-||
A -----3-----0-----------|| x3
E 0----------------3-----||
G -------0-0-------------------------|
D -2-2---------2-2---2-2---2-2---2-2-|
A -----3-----0-----0-----0-----0-----|
E 0----------------------------------|

Comme vous le voyez, cette première version est un excellent moyen de travailler la coordination des mains gauche et droite lors des changements de cordes dans le refrain 

Variante solo

La seconde approche, un peu plus technique, permet d’avoir un son plus proche des graves de la guitare.
Vous pourriez choisir cette approche pour jouer en solo, mais pour accompagner une guitare ça n’a que peu d’intérêt.
Maintenez bien votre position en accords pour laisser sonner les cordes 2 par 2 dans chaque mesure afin d’obtenir un son plus harmonieux 🙂

Note pour bien passer le couplet
Appuyez votre majeur bien droit sur la douzième case et entraînez-vous à jouer ce passage sans bouger ce doigt d’un millimètre.
Faites des pauses en secouant votre main si vous sentez pointer l’ankylose 🙂

Intro et couplet

G ---14-14----12-12----11-11----12-12---0-0---0-0-------------||
D --------------------------------------------------4-4---4-4-||
A ------------------------------------3-----3-----2-----2-----|| x4
E 12-------12-------12-------12-------------------------------||

Refrain

G ------------------------------------||
D ---17-17----17-17----16-16----16-16-||
A 15-------15-------14-------14-------|| x2
E ------------------------------------||
G ------------------------------------||
D ---14-14----17-17----14-14----------||
A ---------15-------12----------17-17-|| x3
E 12-------------------------15-------||
G ------------------------------------------------------||
D ---14-14----17-17----14-14----14-14----14-14----14-14-||
A ---------15-------12-------12-------12-------12-------||
E 12----------------------------------------------------||

Dans la vidéo je joue sur les deux plans car j’aime bien avoir un son plus grave dans les moments plus intenses du morceau 

 

Pour aller plus loin

 

Ce morceau est originalement chanté avec pour seul accompagnement une guitare acoustique.
C’est sobre 

Je vous donne ici la grille des accords utilisés et je détaille ensuite, dans l’exercice ci-dessous, une manière d’ajouter un peu plus d’harmonie en jouant l’octave, puis la tierce au-dessus, dans la seconde partie du refrain.

Inutile d’en faire trop, le morceau est déjà suffisamment génial comme ça 

 

grille accords intro - couplet pour Alone de Ben Harper

Grille d'accords pour l'intro et le couplet

grille accords refrain pour Alone de Ben Harper

Grille d'accords pour le refrain

 

Un peu d’exercice

Je vous ai enregistré la ligne de basse en jouant le morceau à la 12ème case.

Dans la seconde répétition du morceau, j’ai inclus la fin du refrain en jouant des arpèges de cette manière :

G ----9------9-----5-----4-|
D --------10-----7-----5---|
A --7----------------------|
E 0-----8------5-----3-----|

Vous pouvez reconnaître successivement des notes des accords de Mim, Do, Lam et Sol.

Vous n’êtes pas obligé de faire pareil pour vous entrainer, cela vous donne simplement une idée de la manière dont vous pouvez utiliser les notes de chaque accord.
J’espère que cette version de Alone vous a plu. De mon côté j’ai eu beaucoup de plaisir à la découvrir 
J’ai modifié légèrement mon approche par rapport au premier morceau étudié, encore une fois laissez-moi vos commentaires pour me dire ce que vous en pensez.

À bientôt pour le prochain morceau 

 

PS : grâce à ce défi j’ai déjà beaucoup appris et j’ai aussi rencontré des personnes qui m’ont aidé à progresser.
Le prochain morceau sera donc une dédicace à un nouveau bassiste qui a partagé avec moi ses tuyaux hyper-efficaces 

 

Entrez votre prénom et votre email pour que
je vous envoie le Pack Débutant gratuitement :

Auteur: Johann

Partagez cet article sur

3 Commentaires

  1. Pas facile les accords mais ça sonne super bien alors merci et surtout continue moi je vais basser le morceau à fond 🙂

    Poster une réponse
    • oui tu basses à fond mais pas facile de le jouer en accord, je préfère la version live ou le bassiste la joue simple 🙂

      Poster une réponse
      • Salut Sébasse et Bebert,
        en effet Juan Nelson est un king de la basse efficace et on peut admirer son travail dans ce morceau joué en live avec les Innocent Criminals.

        =>

        Dans la version que je présente, je tenais surtout à expliquer diverses façons d’aborder le morceau pour un bassiste, en particulier quand le bassiste s’entraine chez lui en solo 🙂

        Poster une réponse

Soumettre un commentaire

Votre adresse de messagerie ne sera pas publiée. Les champs obligatoires sont indiqués avec *

Téléchargez le Pack débutant et prenez plaisir à jouer dès aujourd'hui ! Cliquez ici
Hello. Add your message here.